ISO-10303-21;
HEADER;
FILE_DESCRIPTION (( 'STEP AP203' ),
    '1' );
FILE_NAME ('QB-CTZQWP-20-1310-M.STEP',
    '2020-12-24T01:50:00',
    ( '' ),
    ( '' ),
    'SwSTEP 2.0',
    'SolidWorks 2020',
    '' );
FILE_SCHEMA (( 'CONFIG_CONTROL_DESIGN' ));
ENDSEC;

DATA;
#1 = ORIENTED_EDGE ( 'NONE', *, *, #36, .T. ) ;
#2 = CARTESIAN_POINT ( 'NONE',  ( 3.000000000000000000, 0.000000000000000000, 0.000000000000000000 ) ) ;
#3 = ORIENTED_EDGE ( 'NONE', *, *, #46, .T. ) ;
#4 = ORIENTED_EDGE ( 'NONE', *, *, #255, .T. ) ;
#5 = CARTESIAN_POINT ( 'NONE',  ( 0.000000000000000000, 0.000000000000000000, 0.000000000000000000 ) ) ;
#6 = ORIENTED_EDGE ( 'NONE', *, *, #292, .T. ) ;
#7 = VECTOR ( 'NONE', #243, 1000.000000000000000 ) ;
#8 = CARTESIAN_POINT ( 'NONE',  ( -3.000000000000000444, 0.000000000000000000, 0.000000000000000000 ) ) ;
#9 = AXIS2_PLACEMENT_3D ( 'NONE', #5, #233, #105 ) ;
#10 = EDGE_CURVE ( 'NONE', #265, #133, #273, .T. ) ;
#11 = CARTESIAN_POINT ( 'NONE',  ( -3.000000000000000000, 1.555301434917138433E-15, -12.69999999999999929 ) ) ;
#12 = ORIENTED_EDGE ( 'NONE', *, *, #220, .T. ) ;
#13 = VERTEX_POINT ( 'NONE', #289 ) ;
#14 = LOCAL_TIME ( 9, 50, 0.000000000000000000, #272 ) ;
#15 = CALENDAR_DATE ( 2020, 24, 12 ) ;
#16 = CARTESIAN_POINT ( 'NONE',  ( -3.000000000000000444, 0.000000000000000000, 0.000000000000000000 ) ) ;
#17 = CALENDAR_DATE ( 2020, 24, 12 ) ;
#18 = DIRECTION ( 'NONE',  ( -1.000000000000000000, 0.000000000000000000, -0.000000000000000000 ) ) ;
#19 = DIRECTION ( 'NONE',  ( 0.000000000000000000, 0.000000000000000000, 1.000000000000000000 ) ) ;
#20 = CARTESIAN_POINT ( 'NONE',  ( 2.999999999999999112, 0.000000000000000000, 0.000000000000000000 ) ) ;
#21 = DIRECTION ( 'NONE',  ( -1.000000000000000000, -0.000000000000000000, -0.000000000000000000 ) ) ;
#22 = CC_DESIGN_APPROVAL ( #62, ( #128 ) ) ;
#23 = FACE_OUTER_BOUND ( 'NONE', #137, .T. ) ;
#24 = DIRECTION ( 'NONE',  ( 0.000000000000000000, 0.000000000000000000, 1.000000000000000000 ) ) ;
#25 = AXIS2_PLACEMENT_3D ( 'NONE', #334, #55, #287 ) ;
#26 = ORIENTED_EDGE ( 'NONE', *, *, #242, .T. ) ;
#27 = CARTESIAN_POINT ( 'NONE',  ( 2.500000000000000888, 0.000000000000000000, 10.00000000000000000 ) ) ;
#28 = CARTESIAN_POINT ( 'NONE',  ( 2.500000000000000888, 0.000000000000000000, 0.000000000000000000 ) ) ;
#29 = EDGE_LOOP ( 'NONE', ( #295, #218 ) ) ;
#30 = EDGE_LOOP ( 'NONE', ( #206, #152, #86, #291 ) ) ;
#31 = VECTOR ( 'NONE', #84, 1000.000000000000000 ) ;
#32 = LOCAL_TIME ( 9, 50, 0.000000000000000000, #176 ) ;
#33 = CARTESIAN_POINT ( 'NONE',  ( -2.500000000000000444, 0.000000000000000000, 0.000000000000000000 ) ) ;
#34 = LINE ( 'NONE', #136, #193 ) ;
#35 = UNCERTAINTY_MEASURE_WITH_UNIT (LENGTH_MEASURE( 1.000000000000000082E-05 ), #312, 'distance_accuracy_value', 'NONE');
#36 = EDGE_CURVE ( 'NONE', #211, #266, #68, .T. ) ;
#37 = CARTESIAN_POINT ( 'NONE',  ( -3.000000000000000000, 0.000000000000000000, 12.69999999999999929 ) ) ;
#38 = AXIS2_PLACEMENT_3D ( 'NONE', #20, #249, #254 ) ;
#39 = FACE_BOUND ( 'NONE', #77, .T. ) ;
#40 = DIRECTION ( 'NONE',  ( 0.000000000000000000, 0.000000000000000000, -1.000000000000000000 ) ) ;
#41 = EDGE_CURVE ( 'NONE', #13, #213, #207, .T. ) ;
#42 = CYLINDRICAL_SURFACE ( 'NONE', #316, 10.00000000000000000 ) ;
#43 = CIRCLE ( 'NONE', #90, 12.69999999999999929 ) ;
#44 =( GEOMETRIC_REPRESENTATION_CONTEXT ( 3 ) GLOBAL_UNCERTAINTY_ASSIGNED_CONTEXT ( ( #35 ) ) GLOBAL_UNIT_ASSIGNED_CONTEXT ( ( #312, #203, #50 ) ) REPRESENTATION_CONTEXT ( 'NONE', 'WORKASPACE' ) );
#45 = DIRECTION ( 'NONE',  ( -0.000000000000000000, 0.000000000000000000, 1.000000000000000000 ) ) ;
#46 = EDGE_CURVE ( 'NONE', #266, #147, #82, .T. ) ;
#47 = AXIS2_PLACEMENT_3D ( 'NONE', #63, #61, #183 ) ;
#48 = SECURITY_CLASSIFICATION ( '', '', #198 ) ;
#49 = PERSON_AND_ORGANIZATION ( #285, #328 ) ;
#50 =( NAMED_UNIT ( * ) SI_UNIT ( $, .STERADIAN. ) SOLID_ANGLE_UNIT ( ) );
#51 = EDGE_LOOP ( 'NONE', ( #59, #263, #26, #4 ) ) ;
#52 = DIRECTION ( 'NONE',  ( 0.000000000000000000, 0.000000000000000000, -1.000000000000000000 ) ) ;
#53 = ORIENTED_EDGE ( 'NONE', *, *, #154, .F. ) ;
#54 = EDGE_LOOP ( 'NONE', ( #315, #103, #313, #245 ) ) ;
#55 = DIRECTION ( 'NONE',  ( -1.000000000000000000, -0.000000000000000000, -0.000000000000000000 ) ) ;
#56 = VERTEX_POINT ( 'NONE', #215 ) ;
#57 = DIRECTION ( 'NONE',  ( 1.000000000000000000, 0.000000000000000000, 0.000000000000000000 ) ) ;
#58 = VERTEX_POINT ( 'NONE', #11 ) ;
#59 = ORIENTED_EDGE ( 'NONE', *, *, #10, .F. ) ;
#60 = CIRCLE ( 'NONE', #269, 12.69999999999999929 ) ;
#61 = DIRECTION ( 'NONE',  ( -1.000000000000000000, -0.000000000000000000, -0.000000000000000000 ) ) ;
#62 = APPROVAL ( #64, 'UNSPECIFIED' ) ;
#63 = CARTESIAN_POINT ( 'NONE',  ( -1.614212418857619014, 0.000000000000000000, 0.000000000000000000 ) ) ;
#64 = APPROVAL_STATUS ( 'not_yet_approved' ) ;
#65 = DIRECTION ( 'NONE',  ( -1.000000000000000000, -0.000000000000000000, -0.000000000000000000 ) ) ;
#66 = COORDINATED_UNIVERSAL_TIME_OFFSET ( 8, 0, .AHEAD. ) ;
#67 = FACE_OUTER_BOUND ( 'NONE', #29, .T. ) ;
#68 = CIRCLE ( 'NONE', #268, 10.00000000000000000 ) ;
#69 = APPROVAL_DATE_TIME ( #168, #62 ) ;
#70 = CARTESIAN_POINT ( 'NONE',  ( 2.500000000000000444, 10.00000000000000000, 0.000000000000000000 ) ) ;
#71 = CARTESIAN_POINT ( 'NONE',  ( 2.999999999999999112, 0.000000000000000000, 0.000000000000000000 ) ) ;
#72 = DIRECTION ( 'NONE',  ( -1.000000000000000000, 0.000000000000000000, -0.000000000000000000 ) ) ;
#73 = CC_DESIGN_PERSON_AND_ORGANIZATION_ASSIGNMENT ( #138, #92, ( #128 ) ) ;
#74 = EDGE_CURVE ( 'NONE', #266, #211, #118, .T. ) ;
#75 = APPLICATION_PROTOCOL_DEFINITION ( 'international standard', 'config_control_design', 1994, #170 ) ;
#76 = DIRECTION ( 'NONE',  ( 0.000000000000000000, 0.000000000000000000, 1.000000000000000000 ) ) ;
#77 = EDGE_LOOP ( 'NONE', ( #12, #259 ) ) ;
#78 = ORIENTED_EDGE ( 'NONE', *, *, #240, .T. ) ;
#79 = CARTESIAN_POINT ( 'NONE',  ( -3.000000000000000000, 0.000000000000000000, 0.000000000000000000 ) ) ;
#80 = DIRECTION ( 'NONE',  ( -1.000000000000000000, -0.000000000000000000, -0.000000000000000000 ) ) ;
#81 = EDGE_LOOP ( 'NONE', ( #6, #234, #182, #204 ) ) ;
#82 = LINE ( 'NONE', #151, #7 ) ;
#83 = EDGE_CURVE ( 'NONE', #130, #147, #185, .T. ) ;
#84 = DIRECTION ( 'NONE',  ( -1.000000000000000000, -0.000000000000000000, -0.000000000000000000 ) ) ;
#85 = CARTESIAN_POINT ( 'NONE',  ( -1.614212418857619014, 0.000000000000000000, 12.69999999999999929 ) ) ;
#86 = ORIENTED_EDGE ( 'NONE', *, *, #83, .T. ) ;
#87 = DATE_AND_TIME ( #17, #14 ) ;
#88 = CARTESIAN_POINT ( 'NONE',  ( -1.614212418857619014, 0.000000000000000000, 0.000000000000000000 ) ) ;
#89 = APPROVAL ( #278, 'UNSPECIFIED' ) ;
#90 = AXIS2_PLACEMENT_3D ( 'NONE', #79, #155, #165 ) ;
#91 = PLANE ( 'NONE',  #125 ) ;
#92 = PERSON_AND_ORGANIZATION_ROLE ( 'creator' ) ;
#93 = FACE_OUTER_BOUND ( 'NONE', #288, .T. ) ;
#94 = DIRECTION ( 'NONE',  ( -0.000000000000000000, 0.000000000000000000, 1.000000000000000000 ) ) ;
#95 = AXIS2_PLACEMENT_3D ( 'NONE', #330, #18, #94 ) ;
#96 = CIRCLE ( 'NONE', #25, 10.00000000000000000 ) ;
#97 = CC_DESIGN_PERSON_AND_ORGANIZATION_ASSIGNMENT ( #248, #157, ( #128 ) ) ;
#98 = CLOSED_SHELL ( 'NONE', ( #159, #143, #188, #180, #228, #164, #194, #225, #172, #252 ) ) ;
#99 = AXIS2_PLACEMENT_3D ( 'NONE', #161, #65, #332 ) ;
#100 = DIRECTION ( 'NONE',  ( -1.000000000000000000, -0.000000000000000000, -0.000000000000000000 ) ) ;
#101 = DIRECTION ( 'NONE',  ( -1.000000000000000000, -0.000000000000000000, -0.000000000000000000 ) ) ;
#102 = ORIENTED_EDGE ( 'NONE', *, *, #236, .T. ) ;
#103 = ORIENTED_EDGE ( 'NONE', *, *, #307, .T. ) ;
#104 = FACE_OUTER_BOUND ( 'NONE', #30, .T. ) ;
#105 = DIRECTION ( 'NONE',  ( 1.000000000000000000, 0.000000000000000000, 0.000000000000000000 ) ) ;
#106 = APPROVAL_PERSON_ORGANIZATION ( #160, #89, #111 ) ;
#107 = VERTEX_POINT ( 'NONE', #27 ) ;
#108 = DIRECTION ( 'NONE',  ( 0.000000000000000000, 0.000000000000000000, -1.000000000000000000 ) ) ;
#109 = DIRECTION ( 'NONE',  ( 1.000000000000000000, 0.000000000000000000, 0.000000000000000000 ) ) ;
#110 = ORIENTED_EDGE ( 'NONE', *, *, #83, .F. ) ;
#111 = APPROVAL_ROLE ( '' ) ;
#112 = ORIENTED_EDGE ( 'NONE', *, *, #156, .T. ) ;
#113 = PERSON_AND_ORGANIZATION_ROLE ( 'creator' ) ;
#114 = CARTESIAN_POINT ( 'NONE',  ( -1.614212418857619014, 0.000000000000000000, 0.000000000000000000 ) ) ;
#115 = CC_DESIGN_PERSON_AND_ORGANIZATION_ASSIGNMENT ( #224, #113, ( #261 ) ) ;
#116 = FACE_OUTER_BOUND ( 'NONE', #229, .T. ) ;
#117 = APPROVAL_DATE_TIME ( #300, #175 ) ;
#118 = CIRCLE ( 'NONE', #171, 10.00000000000000000 ) ;
#119 = CYLINDRICAL_SURFACE ( 'NONE', #148, 10.00000000000000000 ) ;
#120 = CIRCLE ( 'NONE', #126, 12.69999999999999929 ) ;
#121 = EDGE_CURVE ( 'NONE', #178, #58, #34, .T. ) ;
#122 = FACE_OUTER_BOUND ( 'NONE', #54, .T. ) ;
#123 = MANIFOLD_SOLID_BREP ( 'Ðý×', #98 ) ;
#124 = DIRECTION ( 'NONE',  ( 0.000000000000000000, 0.000000000000000000, 1.000000000000000000 ) ) ;
#125 = AXIS2_PLACEMENT_3D ( 'NONE', #197, #190, #40 ) ;
#126 = AXIS2_PLACEMENT_3D ( 'NONE', #149, #202, #129 ) ;
#127 = CARTESIAN_POINT ( 'NONE',  ( 2.999999999999999112, 1.224646799147353256E-15, -10.00000000000000000 ) ) ;
#128 = PRODUCT_DEFINITION_FORMATION_WITH_SPECIFIED_SOURCE ( 'ANY', '', #308, .NOT_KNOWN. ) ;
#129 = DIRECTION ( 'NONE',  ( 0.000000000000000000, 0.000000000000000000, 1.000000000000000000 ) ) ;
#130 = VERTEX_POINT ( 'NONE', #184 ) ;
#131 = DIRECTION ( 'NONE',  ( -1.000000000000000000, -0.000000000000000000, -0.000000000000000000 ) ) ;
#132 = DIRECTION ( 'NONE',  ( -1.000000000000000000, -0.000000000000000000, -0.000000000000000000 ) ) ;
#133 = VERTEX_POINT ( 'NONE', #187 ) ;
#134 = CARTESIAN_POINT ( 'NONE',  ( -1.614212418857619014, 1.224646799147353256E-15, -10.00000000000000000 ) ) ;
#135 = CC_DESIGN_SECURITY_CLASSIFICATION ( #48, ( #128 ) ) ;
#136 = CARTESIAN_POINT ( 'NONE',  ( -1.614212418857619014, 1.555301434917138433E-15, -12.69999999999999929 ) ) ;
#137 = EDGE_LOOP ( 'NONE', ( #212, #238 ) ) ;
#138 = PERSON_AND_ORGANIZATION ( #285, #328 ) ;
#139 = ORIENTED_EDGE ( 'NONE', *, *, #242, .F. ) ;
#140 = DIRECTION ( 'NONE',  ( -1.000000000000000000, -0.000000000000000000, -0.000000000000000000 ) ) ;
#141 = AXIS2_PLACEMENT_3D ( 'NONE', #16, #80, #24 ) ;
#142 = DIRECTION ( 'NONE',  ( -1.000000000000000000, -0.000000000000000000, -0.000000000000000000 ) ) ;
#143 = ADVANCED_FACE ( 'NONE', ( #104 ), #299, .F. ) ;
#144 = VECTOR ( 'NONE', #132, 1000.000000000000000 ) ;
#145 = APPROVAL_STATUS ( 'not_yet_approved' ) ;
#146 = PRODUCT_RELATED_PRODUCT_CATEGORY ( 'detail', '', ( #308 ) ) ;
#147 = VERTEX_POINT ( 'NONE', #158 ) ;
#148 = AXIS2_PLACEMENT_3D ( 'NONE', #88, #283, #303 ) ;
#149 = CARTESIAN_POINT ( 'NONE',  ( 3.000000000000000000, 0.000000000000000000, 0.000000000000000000 ) ) ;
#150 = ORIENTED_EDGE ( 'NONE', *, *, #236, .F. ) ;
#151 = CARTESIAN_POINT ( 'NONE',  ( -1.614212418857619014, 0.000000000000000000, 10.00000000000000000 ) ) ;
#152 = ORIENTED_EDGE ( 'NONE', *, *, #154, .T. ) ;
#153 = DIRECTION ( 'NONE',  ( 0.000000000000000000, 0.000000000000000000, 1.000000000000000000 ) ) ;
#154 = EDGE_CURVE ( 'NONE', #211, #130, #241, .T. ) ;
#155 = DIRECTION ( 'NONE',  ( -1.000000000000000000, -0.000000000000000000, -0.000000000000000000 ) ) ;
#156 = EDGE_CURVE ( 'NONE', #213, #58, #43, .T. ) ;
#157 = PERSON_AND_ORGANIZATION_ROLE ( 'design_supplier' ) ;
#158 = CARTESIAN_POINT ( 'NONE',  ( -3.000000000000000444, 0.000000000000000000, 10.00000000000000000 ) ) ;
#159 = ADVANCED_FACE ( 'NONE', ( #169 ), #279, .T. ) ;
#160 = PERSON_AND_ORGANIZATION ( #285, #328 ) ;
#161 = CARTESIAN_POINT ( 'NONE',  ( -1.614212418857619014, 0.000000000000000000, 0.000000000000000000 ) ) ;
#162 = CIRCLE ( 'NONE', #208, 12.69999999999999929 ) ;
#163 = PERSON_AND_ORGANIZATION_ROLE ( 'classification_officer' ) ;
#164 = ADVANCED_FACE ( 'NONE', ( #192 ), #119, .F. ) ;
#165 = DIRECTION ( 'NONE',  ( 0.000000000000000000, 0.000000000000000000, 1.000000000000000000 ) ) ;
#166 = DATE_AND_TIME ( #274, #290 ) ;
#167 = DIRECTION ( 'NONE',  ( -1.000000000000000000, -0.000000000000000000, -0.000000000000000000 ) ) ;
#168 = DATE_AND_TIME ( #325, #318 ) ;
#169 = FACE_OUTER_BOUND ( 'NONE', #81, .T. ) ;
#170 = APPLICATION_CONTEXT ( 'configuration controlled 3d designs of mechanical parts and assemblies' ) ;
#171 = AXIS2_PLACEMENT_3D ( 'NONE', #33, #109, #322 ) ;
#172 = ADVANCED_FACE ( 'NONE', ( #67, #39 ), #301, .F. ) ;
#173 = AXIS2_PLACEMENT_3D ( 'NONE', #71, #142, #306 ) ;
#174 = PERSON_AND_ORGANIZATION_ROLE ( 'design_owner' ) ;
#175 = APPROVAL ( #145, 'UNSPECIFIED' ) ;
#176 = COORDINATED_UNIVERSAL_TIME_OFFSET ( 8, 0, .AHEAD. ) ;
#177 = LINE ( 'NONE', #260, #144 ) ;
#178 = VERTEX_POINT ( 'NONE', #275 ) ;
#179 = CIRCLE ( 'NONE', #311, 10.00000000000000000 ) ;
#180 = ADVANCED_FACE ( 'NONE', ( #227 ), #284, .F. ) ;
#181 = ORIENTED_EDGE ( 'NONE', *, *, #10, .T. ) ;
#182 = ORIENTED_EDGE ( 'NONE', *, *, #156, .F. ) ;
#183 = DIRECTION ( 'NONE',  ( 0.000000000000000000, 0.000000000000000000, 1.000000000000000000 ) ) ;
#184 = CARTESIAN_POINT ( 'NONE',  ( -3.000000000000000444, 1.224646799147353256E-15, -10.00000000000000000 ) ) ;
#185 = CIRCLE ( 'NONE', #246, 10.00000000000000000 ) ;
#186 = DESIGN_CONTEXT ( 'detailed design', #195, 'design' ) ;
#187 = CARTESIAN_POINT ( 'NONE',  ( 2.500000000000000888, 1.224646799147353256E-15, -10.00000000000000000 ) ) ;
#188 = ADVANCED_FACE ( 'NONE', ( #116 ), #42, .F. ) ;
#189 = DATE_TIME_ROLE ( 'classification_date' ) ;
#190 = DIRECTION ( 'NONE',  ( 1.000000000000000000, 0.000000000000000000, 0.000000000000000000 ) ) ;
#191 = DATE_AND_TIME ( #280, #304 ) ;
#192 = FACE_OUTER_BOUND ( 'NONE', #320, .T. ) ;
#193 = VECTOR ( 'NONE', #131, 1000.000000000000000 ) ;
#194 = ADVANCED_FACE ( 'NONE', ( #327, #93 ), #91, .F. ) ;
#195 = APPLICATION_CONTEXT ( 'configuration controlled 3d designs of mechanical parts and assemblies' ) ;
#196 = APPROVAL_PERSON_ORGANIZATION ( #49, #175, #258 ) ;
#197 = CARTESIAN_POINT ( 'NONE',  ( -3.000000000000000000, 10.00000000000000000, 0.000000000000000000 ) ) ;
#198 = SECURITY_CLASSIFICATION_LEVEL ( 'unclassified' ) ;
#199 = DIRECTION ( 'NONE',  ( 0.000000000000000000, 0.000000000000000000, 1.000000000000000000 ) ) ;
#200 = CARTESIAN_POINT ( 'NONE',  ( -3.000000000000000000, 0.000000000000000000, 0.000000000000000000 ) ) ;
#201 = EDGE_CURVE ( 'NONE', #58, #213, #162, .T. ) ;
#202 = DIRECTION ( 'NONE',  ( -1.000000000000000000, -0.000000000000000000, -0.000000000000000000 ) ) ;
#203 =( NAMED_UNIT ( * ) PLANE_ANGLE_UNIT ( ) SI_UNIT ( $, .RADIAN. ) );
#204 = ORIENTED_EDGE ( 'NONE', *, *, #41, .F. ) ;
#205 = EDGE_CURVE ( 'NONE', #265, #56, #209, .T. ) ;
#206 = ORIENTED_EDGE ( 'NONE', *, *, #74, .T. ) ;
#207 = LINE ( 'NONE', #85, #310 ) ;
#208 = AXIS2_PLACEMENT_3D ( 'NONE', #200, #140, #251 ) ;
#209 = CIRCLE ( 'NONE', #173, 10.00000000000000000 ) ;
#210 = CARTESIAN_POINT ( 'NONE',  ( -2.500000000000000444, 0.000000000000000000, 10.00000000000000000 ) ) ;
#211 = VERTEX_POINT ( 'NONE', #253 ) ;
#212 = ORIENTED_EDGE ( 'NONE', *, *, #74, .F. ) ;
#213 = VERTEX_POINT ( 'NONE', #37 ) ;
#214 = CC_DESIGN_DATE_AND_TIME_ASSIGNMENT ( #191, #302, ( #261 ) ) ;
#215 = CARTESIAN_POINT ( 'NONE',  ( 2.999999999999999112, 0.000000000000000000, 10.00000000000000000 ) ) ;
#216 = VECTOR ( 'NONE', #239, 1000.000000000000000 ) ;
#217 = APPROVAL_DATE_TIME ( #166, #89 ) ;
#218 = ORIENTED_EDGE ( 'NONE', *, *, #307, .F. ) ;
#219 = CYLINDRICAL_SURFACE ( 'NONE', #230, 12.69999999999999929 ) ;
#220 = EDGE_CURVE ( 'NONE', #56, #265, #333, .T. ) ;
#221 = DIRECTION ( 'NONE',  ( -1.000000000000000000, -0.000000000000000000, -0.000000000000000000 ) ) ;
#222 = AXIS2_PLACEMENT_3D ( 'NONE', #70, #72, #45 ) ;
#223 = CC_DESIGN_APPROVAL ( #89, ( #48 ) ) ;
#224 = PERSON_AND_ORGANIZATION ( #285, #328 ) ;
#225 = ADVANCED_FACE ( 'NONE', ( #122 ), #219, .T. ) ;
#226 = CARTESIAN_POINT ( 'NONE',  ( -1.614212418857619014, 0.000000000000000000, 0.000000000000000000 ) ) ;
#227 = FACE_OUTER_BOUND ( 'NONE', #262, .T. ) ;
#228 = ADVANCED_FACE ( 'NONE', ( #331 ), #309, .F. ) ;
#229 = EDGE_LOOP ( 'NONE', ( #267, #181, #78, #139 ) ) ;
#230 = AXIS2_PLACEMENT_3D ( 'NONE', #226, #21, #124 ) ;
#231 = DIRECTION ( 'NONE',  ( 0.000000000000000000, 0.000000000000000000, 1.000000000000000000 ) ) ;
#232 = CARTESIAN_POINT ( 'NONE',  ( -2.500000000000000444, 10.00000000000000000, 0.000000000000000000 ) ) ;
#233 = DIRECTION ( 'NONE',  ( 0.000000000000000000, 0.000000000000000000, 1.000000000000000000 ) ) ;
#234 = ORIENTED_EDGE ( 'NONE', *, *, #121, .T. ) ;
#235 = ORIENTED_EDGE ( 'NONE', *, *, #255, .F. ) ;
#236 = EDGE_CURVE ( 'NONE', #147, #130, #297, .T. ) ;
#237 = PLANE ( 'NONE',  #277 ) ;
#238 = ORIENTED_EDGE ( 'NONE', *, *, #36, .F. ) ;
#239 = DIRECTION ( 'NONE',  ( -1.000000000000000000, -0.000000000000000000, -0.000000000000000000 ) ) ;
#240 = EDGE_CURVE ( 'NONE', #133, #107, #179, .T. ) ;
#241 = LINE ( 'NONE', #317, #31 ) ;
#242 = EDGE_CURVE ( 'NONE', #56, #107, #177, .T. ) ;
#243 = DIRECTION ( 'NONE',  ( -1.000000000000000000, -0.000000000000000000, -0.000000000000000000 ) ) ;
#244 = SHAPE_DEFINITION_REPRESENTATION ( #257, #250 ) ;
#245 = ORIENTED_EDGE ( 'NONE', *, *, #201, .F. ) ;
#246 = AXIS2_PLACEMENT_3D ( 'NONE', #8, #271, #153 ) ;
#247 = CC_DESIGN_APPROVAL ( #175, ( #261 ) ) ;
#248 = PERSON_AND_ORGANIZATION ( #285, #328 ) ;
#249 = DIRECTION ( 'NONE',  ( -1.000000000000000000, -0.000000000000000000, -0.000000000000000000 ) ) ;
#250 = ADVANCED_BREP_SHAPE_REPRESENTATION ( 'QB-CTZQWP-20-1310-M', ( #123, #9 ), #44 ) ;
#251 = DIRECTION ( 'NONE',  ( 0.000000000000000000, 0.000000000000000000, 1.000000000000000000 ) ) ;
#252 = ADVANCED_FACE ( 'NONE', ( #23 ), #237, .F. ) ;
#253 = CARTESIAN_POINT ( 'NONE',  ( -2.500000000000000444, 1.224646799147353256E-15, -10.00000000000000000 ) ) ;
#254 = DIRECTION ( 'NONE',  ( 0.000000000000000000, 0.000000000000000000, 1.000000000000000000 ) ) ;
#255 = EDGE_CURVE ( 'NONE', #107, #133, #96, .T. ) ;
#256 = APPROVAL_PERSON_ORGANIZATION ( #305, #62, #282 ) ;
#257 = PRODUCT_DEFINITION_SHAPE ( 'NONE', 'NONE',  #261 ) ;
#258 = APPROVAL_ROLE ( '' ) ;
#259 = ORIENTED_EDGE ( 'NONE', *, *, #205, .T. ) ;
#260 = CARTESIAN_POINT ( 'NONE',  ( -1.614212418857619014, 0.000000000000000000, 10.00000000000000000 ) ) ;
#261 = PRODUCT_DEFINITION ( 'UNKNOWN', '', #128, #186 ) ;
#262 = EDGE_LOOP ( 'NONE', ( #235, #323 ) ) ;
#263 = ORIENTED_EDGE ( 'NONE', *, *, #220, .F. ) ;
#264 = MECHANICAL_CONTEXT ( 'NONE', #170, 'mechanical' ) ;
#265 = VERTEX_POINT ( 'NONE', #127 ) ;
#266 = VERTEX_POINT ( 'NONE', #210 ) ;
#267 = ORIENTED_EDGE ( 'NONE', *, *, #205, .F. ) ;
#268 = AXIS2_PLACEMENT_3D ( 'NONE', #296, #57, #108 ) ;
#269 = AXIS2_PLACEMENT_3D ( 'NONE', #2, #100, #231 ) ;
#270 = CC_DESIGN_PERSON_AND_ORGANIZATION_ASSIGNMENT ( #319, #174, ( #308 ) ) ;
#271 = DIRECTION ( 'NONE',  ( -1.000000000000000000, -0.000000000000000000, -0.000000000000000000 ) ) ;
#272 = COORDINATED_UNIVERSAL_TIME_OFFSET ( 8, 0, .AHEAD. ) ;
#273 = LINE ( 'NONE', #134, #216 ) ;
#274 = CALENDAR_DATE ( 2020, 24, 12 ) ;
#275 = CARTESIAN_POINT ( 'NONE',  ( 3.000000000000000000, 1.555301434917138433E-15, -12.69999999999999929 ) ) ;
#276 = AXIS2_PLACEMENT_3D ( 'NONE', #114, #167, #19 ) ;
#277 = AXIS2_PLACEMENT_3D ( 'NONE', #232, #314, #52 ) ;
#278 = APPROVAL_STATUS ( 'not_yet_approved' ) ;
#279 = CYLINDRICAL_SURFACE ( 'NONE', #276, 12.69999999999999929 ) ;
#280 = CALENDAR_DATE ( 2020, 24, 12 ) ;
#281 = CARTESIAN_POINT ( 'NONE',  ( -1.614212418857619014, 0.000000000000000000, 0.000000000000000000 ) ) ;
#282 = APPROVAL_ROLE ( '' ) ;
#283 = DIRECTION ( 'NONE',  ( -1.000000000000000000, -0.000000000000000000, -0.000000000000000000 ) ) ;
#284 = PLANE ( 'NONE',  #222 ) ;
#285 = PERSON ( 'UNSPECIFIED', 'UNSPECIFIED', 'UNSPECIFIED', ('UNSPECIFIED'), ('UNSPECIFIED'), ('UNSPECIFIED') ) ;
#286 = APPLICATION_PROTOCOL_DEFINITION ( 'international standard', 'config_control_design', 1994, #195 ) ;
#287 = DIRECTION ( 'NONE',  ( 0.000000000000000000, 0.000000000000000000, 1.000000000000000000 ) ) ;
#288 = EDGE_LOOP ( 'NONE', ( #112, #293 ) ) ;
#289 = CARTESIAN_POINT ( 'NONE',  ( 3.000000000000000000, 0.000000000000000000, 12.69999999999999929 ) ) ;
#290 = LOCAL_TIME ( 9, 50, 0.000000000000000000, #326 ) ;
#291 = ORIENTED_EDGE ( 'NONE', *, *, #46, .F. ) ;
#292 = EDGE_CURVE ( 'NONE', #13, #178, #60, .T. ) ;
#293 = ORIENTED_EDGE ( 'NONE', *, *, #201, .T. ) ;
#294 = EDGE_LOOP ( 'NONE', ( #150, #110 ) ) ;
#295 = ORIENTED_EDGE ( 'NONE', *, *, #292, .F. ) ;
#296 = CARTESIAN_POINT ( 'NONE',  ( -2.500000000000000444, 0.000000000000000000, 0.000000000000000000 ) ) ;
#297 = CIRCLE ( 'NONE', #141, 10.00000000000000000 ) ;
#298 = PERSON_AND_ORGANIZATION ( #285, #328 ) ;
#299 = CYLINDRICAL_SURFACE ( 'NONE', #47, 10.00000000000000000 ) ;
#300 = DATE_AND_TIME ( #15, #32 ) ;
#301 = PLANE ( 'NONE',  #95 ) ;
#302 = DATE_TIME_ROLE ( 'creation_date' ) ;
#303 = DIRECTION ( 'NONE',  ( 0.000000000000000000, 0.000000000000000000, 1.000000000000000000 ) ) ;
#304 = LOCAL_TIME ( 9, 50, 0.000000000000000000, #66 ) ;
#305 = PERSON_AND_ORGANIZATION ( #285, #328 ) ;
#306 = DIRECTION ( 'NONE',  ( 0.000000000000000000, 0.000000000000000000, 1.000000000000000000 ) ) ;
#307 = EDGE_CURVE ( 'NONE', #178, #13, #120, .T. ) ;
#308 = PRODUCT ( 'QB-CTZQWP-20-1310-M', 'QB-CTZQWP-20-1310-M', '', ( #264 ) ) ;
#309 = CYLINDRICAL_SURFACE ( 'NONE', #99, 10.00000000000000000 ) ;
#310 = VECTOR ( 'NONE', #321, 1000.000000000000000 ) ;
#311 = AXIS2_PLACEMENT_3D ( 'NONE', #28, #101, #76 ) ;
#312 =( LENGTH_UNIT ( ) NAMED_UNIT ( * ) SI_UNIT ( .MILLI., .METRE. ) );
#313 = ORIENTED_EDGE ( 'NONE', *, *, #41, .T. ) ;
#314 = DIRECTION ( 'NONE',  ( 1.000000000000000000, 0.000000000000000000, 0.000000000000000000 ) ) ;
#315 = ORIENTED_EDGE ( 'NONE', *, *, #121, .F. ) ;
#316 = AXIS2_PLACEMENT_3D ( 'NONE', #281, #221, #199 ) ;
#317 = CARTESIAN_POINT ( 'NONE',  ( -1.614212418857619014, 1.224646799147353256E-15, -10.00000000000000000 ) ) ;
#318 = LOCAL_TIME ( 9, 50, 0.000000000000000000, #329 ) ;
#319 = PERSON_AND_ORGANIZATION ( #285, #328 ) ;
#320 = EDGE_LOOP ( 'NONE', ( #53, #1, #3, #102 ) ) ;
#321 = DIRECTION ( 'NONE',  ( -1.000000000000000000, -0.000000000000000000, -0.000000000000000000 ) ) ;
#322 = DIRECTION ( 'NONE',  ( 0.000000000000000000, 0.000000000000000000, -1.000000000000000000 ) ) ;
#323 = ORIENTED_EDGE ( 'NONE', *, *, #240, .F. ) ;
#324 = CC_DESIGN_PERSON_AND_ORGANIZATION_ASSIGNMENT ( #298, #163, ( #48 ) ) ;
#325 = CALENDAR_DATE ( 2020, 24, 12 ) ;
#326 = COORDINATED_UNIVERSAL_TIME_OFFSET ( 8, 0, .AHEAD. ) ;
#327 = FACE_BOUND ( 'NONE', #294, .T. ) ;
#328 = ORGANIZATION ( 'UNSPECIFIED', 'UNSPECIFIED', '' ) ;
#329 = COORDINATED_UNIVERSAL_TIME_OFFSET ( 8, 0, .AHEAD. ) ;
#330 = CARTESIAN_POINT ( 'NONE',  ( 2.999999999999999112, 12.69999999999999929, 0.000000000000000000 ) ) ;
#331 = FACE_OUTER_BOUND ( 'NONE', #51, .T. ) ;
#332 = DIRECTION ( 'NONE',  ( 0.000000000000000000, 0.000000000000000000, 1.000000000000000000 ) ) ;
#333 = CIRCLE ( 'NONE', #38, 10.00000000000000000 ) ;
#334 = CARTESIAN_POINT ( 'NONE',  ( 2.500000000000000888, 0.000000000000000000, 0.000000000000000000 ) ) ;
#335 = CC_DESIGN_DATE_AND_TIME_ASSIGNMENT ( #87, #189, ( #48 ) ) ;
ENDSEC;
END-ISO-10303-21;
